Nirvana Нирвана Курт Кобейн Kurt Cobain Nirvana
Нирвана
Курт Кобейн Kurt Cobain Nirvana Нирвана Курт Кобейн Kurt Cobain Nirvana
Нирвана Курт Кобейн Kurt Cobain Nirvana Нирвана Курт Кобейн Kurt Cobain
Nirvana Нирвана Курт Кобейн Kurt Cobain Nirvana Нирвана Курт Кобейн

Пост-гранж группы

Jonas

Российские гранж-группы

Crisis Dance
The Glue

Кто на сайте?

Сейчас 54 гостей онлайн.

Поиск

Главная страница Аккорды и табы Басовые табы Nirvana "Bleach" Вер. 2

Басовые табы Nirvana "Bleach" Вер. 2 PDF Печать E-mail

-----------------------------------
Symbols used in the tab book:
\ Slide Up To
/ Side Down To
PM Palm Mute
@@@ Feedback
* Mute
-----------------------------------

 

Blew

Intro:
G:--------------
D:--------------
A:--------------
E:--0-0-2\3-3-2-
Verse:
G:--------------------------
D:--------------------------
A:--------------------------
E:-0-0-3-3-3\5-5-5-0-3-3-0--
Chorus:
G:--------------------------
D:--------------------------
A:--------------------------
E:-0-0--0-3-3--3\5-5-6\5/6--
Outro:
G:-------------| |---------------|
D:-------------| |---------------|
A:-------------| |---------------|
E:-0-0-3\6-6-5-| x3 |-0-0-3\6--6--0-|

 

Floyd the Barber

Verse:
G:-------------|
D:-------------|
A:-------------|
E:-1-1-0-0-0---|
Chorus:
G:------------------------|
D:------------------------|
A:-4-4--0-0--3-3----------|
E:---------------4-4--4-4-|

 

About a Girl

Verse:
G:---------------|
D:---------------|
A:---------------|
E:-0-0-0-3-3-3-3-|
Chorus:
G:---------------------------| |-----------------------------|
D:---------------------------| |-----------------------------|
A:-4--4-0--------------------| |---------------3--3-3--3-3-3-|
E:--------4--4-0-2-2-2-2-2-2-| x2, then: |-0--0-0-5--5-5---------------|

SCHOOL
Intro and Verse:
G:---------------------------------
D:---------------------------------
A:---------------------------------
E:-0--0-0-5--0-5-0--0-0-0-0-5------
Chorus:
G:----------------------------------
D:----------------------------------
A:-3--3-3-3--3-3-3------------------
E:-----------------0--0--0----------

 

School

G----------------------------|
D----------------------------|
A----------------------------|
E-0--0-0-5-0--5-0-0-0-0-0--5-|

Chorus
G------------------------------------|
D------------------------------------|
A-3--3-3-3--3-3-3----0--0-0-0--0-0-0-|
E------------------------------------|

 

Love Buzz

Intro and Verse:
G:-------------| |--------------
D:-------------| |--------------
A:-3-1-3-3/7\3-| Every 4th time, play this: |-1--3-3--6--7-
E:-------------| |--------------
Chorus:
G:--------------------------------------------------
D:---7-----------7-----------7-------------10\8\7---
A:-8---8-6-8-6-8---8-6-8-6-8---8-6-8-6-8-8----------
E:--------------------------------------------------

 

Paper Cuts

Intro And Verse:
G:-----------------------|
D:-----------------------|
A:-----------------------|
E:--1-1-1-1-1-1-*-1-1-1--|
{-------PM----------}
Chorus:
G:-----------------------|---------------
D:-----------------------|---------------
A:-----------------------|---------------
E:-2-3-3-4-4-5-5-6-7\6-6-|-5\4-4--7\6-6--
Post-Chorus:
G:-----------------|
D:-----------------|
A:-----------------|
E:-2-2-2-2-2-2-2-2-|

 

Negative Creep

(Tuning: Drop D)
This is the whole song, except the 'Daddy's little girl'
G:---------------------|
D:---------------------|
A:---------------------|
D:-0-0-12\-0-0-0-0-12\-|
'Daddy's little girl' bit:
G:-------------------------|
D:-------------------------|
A:-5-5-3-3-3---------------|
D:-----------6-6\13-13-13--|

 

Scoff

Intro and Verse:
G:---------------
D:---------------
A:---------------
E:-2-2-1-0-2-2-1-
Chorus:
G:---------------------
D:---------------------
A:---------------------
E:-3--3--3-0-0-5--2----
'Heal a million...'

 

Swap Meet

Intro And Verse:
G:---------------
D:---------------
A:-----3-----2-1--
E:-0-1---0-1-----
Chorus:
G:---------------------------|
D:---------------------------|
A:-0-0--0-0-0-3--3-3--3-3-3--|
E:---------------------------|

G:----------------|
D:----------------|
A:---3-2-1-0--1-2-|
E:-1--------0-----|
(repeat the first half of chorus)

End Of Chorus:
G:---------------------|
D:---------------------|
A:---------------------|
E:-2-2--1-1--0-0-0-0-0-|

 

Mr. Moustache

Intro (main riff):
G:---------------------------------|
D:---------------------------------|
A:---2---------------1-------------|
E:-3---3-2-1-0-1-2-3---3-2-1-0-1-2-|
Verse:
G:-------------|
D:-------------|
A:-------------|
E:-3-3-0-1-0-1-|
Chorus:
G:-----------
D:-----------
A:-0-0-3-3-3-
E:-----------

G:-----------------------------------------------------|
D:-----------------------------------------------------|
A:-0-0-0--0-0-0--0-0-0--0-0-0--3-3-3-3-6-6-6-6-6-6-6-6-|
E:-----------------------------------------------------|

 

Sifting

Intro:
G:---------
D:---------
A:---------
E:-0-0-0-0-
[---PM---]
Verse:
G:-----------------------
D:-----------------------
A:-------3-------2-1-0---
E:-0-0-0---0-0-0---------
Pre-Chorus:
G:----------|
D:----------|
A:-------5--|
E:-0-0-0----|
'Your Eyes...'
Chorus:
G:--------------------------
D:--------------------------
A:-5--5-5-5-5-0-------------
E:----------------5-5-5-3-0-
During Solo:
G:---------|
D:---------|
A:---------|
E:-0-0-0---|

 

Big Cheese

Intro:
G:-----|
D:-----|
A:-----|
E:-8-7-|
Verse:
G:----------------|
D:----------------|
A:----------------|
E:-8-8-7-----@@@--|
Chorus:
G:-------------------------------
D:-------------------------------
A:-------------------------------
E:--2--2-2--2-2-2-2--2-2--3-3----

Bridge:
G:--------------
D:--------------
A:-2-2-3-2-1-0--
E:--------------

 

Downer

G:-----------------|
D:-----------------|
A:-----------------|
E:-0-0-0-0-0-8-8-8-|

G:-----------
D:-----------
A:-----------
E:-1-2-3-2-1-
Interlude:
G:--------------------
D:----------0---1-----
A:--0---1-------------
E:--------------------

 

Оставлять комментарии могут только зарегистрированные пользователи.

Тусовка на Kurt Cobain [ru]

Форум* | Гостевуха

* Людям с тонкой душевной организацией, легко ранимым, воспринимающим все на свой счет, с отсутствием чувства юмора и самоиронии - НЕ РЕКОМЕНДУЕТСЯ!

Качаем c FTP!

Качаем альбомы, бутлеги и видео Nirvana с FTP сервера. Для подключения используйте бесплатный FTP-клиент FileZilla.

Данные для доступа:
Сервер: ftp://nirvanaall.ru
Логин: kurt
Пароль: 4ever
Пароль на архив: nirvanaall.ru

Рассылка новостей

На страницу рассылки

Подписаться

Работа над ошибками

Если вы обнаружили на сайте ошибку или недостоверную информацию, то выделите ошибочное слово или фразу и нажмите Ctrl+Enter. Спасибо за участие!

О сайте Kurt Cobain [ru]

Концепция | Контакты | Баннеры

Объявления

Для ссылок.
Яндекс цитирования хостинг от .masterhost
Rambler's Top100