Nirvana Нирвана Курт Кобейн Kurt Cobain Nirvana
Нирвана
Курт Кобейн Kurt Cobain Nirvana Нирвана Курт Кобейн Kurt Cobain Nirvana
Нирвана Курт Кобейн Kurt Cobain Nirvana Нирвана Курт Кобейн Kurt Cobain
Nirvana Нирвана Курт Кобейн Kurt Cobain Nirvana Нирвана Курт Кобейн

Пост-гранж группы

Jonas

Российские гранж-группы

Crisis Dance
The Glue

Кто на сайте?

Сейчас 99 гостей онлайн.

Поиск

Главная страница Аккорды и табы Табы Nirvana "Bleach"

Табы Nirvana "Bleach" PDF Печать E-mail

Blew

DROP D-TUNING WITH HIGHER high-tuned E!! (DADGBF)
[on Bleach all strings dropped also down whole step]

INTRO

D5 F5 G5G#5 G5 F5 D5 G5
----------------I--------------I
----------------I--------------I
----------------I--------------I twice
-0-0-3-5/6--6-5-I-3-3-0-/5--5--I
-0-0-3-5/6--6-5-I-3-3-0-/5--5--I
-0-0-3-5/6--6-5-I-3-3-0-/5--5--I

VERSES
------------------I---------------I------------0-I------------I
------------------I---------------I------------0-I----------0-I
------------------I---------------I------------0-I----------0-I 4 times
-----3-5-5b6==6===Ir5-5-3-3s5-5-3-I----5p3-5-5-0-I--5p3-5-5-0-I
---5--------------I---------------I-5------------I-5----------I
-0----------------I---------------I--------------I0-----------I

CHORUS

F5G5 F5 G5 F5 G#5
----------------I----------------I
----------------I----------------I
----------------I----------------I twice
3-5-X-5-5-3-X-3-I-3-5-X-5-5-3-6--I
3-5-X-5-5-3-X-3-I-3-5-X-5-5-3-6--I
3-5-X-5-5-3-X-3-I-3-5-X-5-5-3-6--I
F5G5 F5 G5 F5 A5
----------------I-------------I-----------------I-----------------I
----------------I-------------I-----------------I-----------------I
----------------I-------------I-----------------I-----------------I
3-5-X-5-5-3-X-3-I3-5-X-5-5-3--I-7-7-7-7-7-7-7-7-I-7-7-7-7-7-7-7-7-I
3-5-X-5-5-3-X-3-I3-5-X-5-5-3--I-7-7-7-7-7-7-7-7-I-7-7-7-7-7-7-7-7-I
3-5-X-5-5-3-X-3-I3-5-X-5-5-3--I-7-7-7-7-7-7-7-7-I-7-7-7-7-7-7-7-7-I

SOLO (under construction, apologies...)

--------------------I--------------------I------------------------I---------------------I
--------------------I--------------------I------------------------I---------------------I
--12b14-------14r12-I--12-12---12p0-12-10I12-12b14-12-12b14--12b14I---12--12p10p0-------I
--------------------I------------p0------I------------------------I------------p0-10-12-I
--------------------I--------------------I------------------------I---------------------I
--------------------I--------------------I------------------------I---------------------I

-------------------I-------------------I---------------------------I---------------------------I
-------------------I-------------------I20b22r20-20pb22r20-20-20b22I20b22-20b22--20-20pb22I
------10-12-/15--14I-17-17-17--19-19-17I---------------------*19b21I------19b21-----19pb21I
10p12--------------I-------------------I---------------------------I----------------------I
-------------------I-------------------I---------------------------I---------------------------I
-------------------I-------------------I---------------------------I---------------------------I
*G string bends are approximated

--------------------I---------------------------I-----------------------I-------------------------I
b22r20b22=22r-20-20-I--18-18---17-17-15-15-15---I-13-15-15-15--13-------I-------------------------I
--------------------I---------------------------I----------------14--13-I-12-10-12-12-12-10-12b14-I
--------------------I---------------------------I-----------------------I-------------------------I
--------------------I---------------------------I-----------------------I-------------------------I
--------------------I---------------------------I-----------------------I-------------------------I

------------------------I---------------------------I-------------------------I----------------------I
------------------------I---------------------------I-------------13-13b15-15-I15-15--15-15-15-15-15rI
-12-10-----p0--------10-I-12-12b14-12-10------------I10-12-12/14--------------I----------------------I
------12-10p0--10-12----I---------------12-10-12-12-I-------------------------I----------------------I
------------------------I---------------------------I-------------------------I----------------------I
------------------------I---------------------------I-------------------------I----------------------I

OUTRO (first time)

D5 F5 G5G#5 D5
---------------I
---------------I

---------------I
0-0-3-5-6--6-0-I
0-0-3-5-6--6-0-I
0-0-3-5-6--6-0-I

OUTRO (the rest than first time)

D5 F5 G5G#5 D5
----------------I
----------------I
----------------I
---0-3-5-6--6-0-I
---0-3-5-6--6-0-I
---0-3-5-6--6-0-I

 

Floyd the Barber

Tuning:Standard (?step down)

INTRO
3 times 4th time:

F5 E5 F5
--------------||-------0------|
--------------||-------0------|
--------------||-------0------|
-3--3--2-2-2--||-3--3/--------|
-3--3--2-2-2--||-3--3/--------|
-1--1--0-0-0--||-1--1/--------|
PM____

Intro is repeated after choruses 1 and 2 and interlude

VERSES
7 times last time:

F5 E5 F5
--------------||-------0------|
--------------||-------0------|
--------------||-------0------|
-3--3--2-2-2--||-3--3/--------|
-3--3--2-2-2--||-3--3/--------|
-1--1--0-0-0--||-1--1/--------|
PM____

CHORUS

C#5 A5 C5 G#5
--------------|--------------|
--------------|--------------|
-6-6-------5-5|--------------|
-6-6--7-7--5-5|-6------------|
-4-4--7-7--3-3|-6------------|
------5-5-----|-4------------|

INTERLUDE

F5
--------------|--------------|
--------------|--------------|
--------------|--------------|
3--3--3-------|--------------|
3--3--3-1-3-3-|-3--3-1--0-1-3|
1--1--1-------|--------------|

2 times
--------------|---------------|
--------------|---------------|
--------------|---------------|
--------------|---------------|
-----------0-1|1/3--3-1--0-1-3|
1--1-0-1-3----|---------------|

--------------|----------------|
--------------|----------------|
--------------|----------------|
--------------|--------------0-|
-----------0-1|3-5-5-6-6-7-7-0-|
1--1-0-1-3----|----------------|

OUTRO

F5 E5
--------------|
--------------|
--------------|
-3--3--2-2-2--|
-3--3--2-2-2--|
-1--1--0-0-0--|
PM____

 

About a Girl

Tuning:Standard

*The main riff is easy to play with alternate picking (seen on the pattern down)
with hitting more bottom strings with every downstroke and the top strings with every upstroke.
Play just open strings w/every second upstroke. And let everything ring out.

VERSE RIFF

d=downstroke
u=upstroke
E5 G5
---0-------3------I
---0---0---3----0-I
-------0------0-0-I
-----2-0-0----0-0-I
-2---2-0--------0-I
-0-------3---3----I
d u d u d u d u

1ST AND 2ND CHORUSES

C#5 C#5/G# F#
---------------|---------0-0---|
---------------|---------0-0---|
----6------6---|---------X-X-0-|
-6--6------6-6-|4-4-X-4--4-4-0-|twice
-4--4-4--------|4-4-X-4--4-4-0-|
--------4----4-|2-2-X-2--------|

E5 A5 C5
----------------|----------------|
----------------|----------------|
--------9-9-9-0-|-2-2-X-5--5-5-0-|
-2--2-/-9-9-9-0-|-2-2-X-5--5-5-0-|
-2--2-/-7-7-7-0-|-0-0-X-3--3-3-0-|
-0--0-----------|----------------|

GUITAR SOLO(w/dist.)
----------------|------------------|
----------------|------------------|
-------5--------|---------12----12\| 4 times
-------5h7--7--7|s9--9-9-s12-12---\|
---5h7----------|------------------|
-0--------------|------------------|

3RD CHORUS
C#5 G#5 F#5
---------------|---------0-0---|
---------------|---------0-0---|
-6--6-0--------|---------X-X-0-|
-6--6-0-6--6-0-|4-4-X-4--4-4-0-|twice
-4--4-0-6--6-0-|4-4-X-4--4-4-0-|
--------4--4-0-|2-2-X-2--------|

E5 A5 C5
----------------|----------------|
----------------|----------------|
--------9-9-9-0-|-2-2-X-5--5-5-0-|
-2--2-/-9-9-9-0-|-2-2-X-5--5-5-0-|
-2--2-/-7-7-7-0-|-0-0-X-3--3-3-0-|
-0--0-----------|----------------|

4TH CHORUS

C#5 G#5 F#5
---------------|---------0-0---|
---------------|---------0-0---|
-6--6-0--------|---------X-X-0-|
-6--6-0-6--6-0-|4-4-X-4--4-4-0-|twice
-4--4-0-6--6-0-|4-4-X-4--4-4-0-|
--------4--4-0-|2-2-X-2--------|

E5 A5 C5
----------------|----------------|
----------------|----------------|
--------9-9-9-0-|-2-2-X-5--5-5-0-|
-2--2-/-9-9-9-0-|-2-2-X-5--5-5-0-|
-2--2-/-7-7-7-0-|-0-0-X-3--3-3-0-|
-0--0-----------|----------------|

E5 A5 C5
----------------|-----------------|-----------------|-----------------|
----------------|-----------------|-----------------|-----------------|
--------9-9-9-0-|-2-2-X-5-5-5-5-5-|-5-5-5-5-5-5-5-5-|-5-5-5-5-5-5-5-5-|
-2--2-/-9-9-9-0-|-2-2-X-5-5-5-5-5-|-5-5-5-5-5-5-5-5-|-5-5-5-5-5-5-5-5-|
-2--2-/-7-7-7-0-|-0-0-X-3-3-3-3-3-|-3-3-3-3-3-3-3-3-|-3-3-3-3-3-3-3-3-|
-0--0-----------|-----------------|-----------------|-----------------|

 

School

Tuning:Standard

First tap the back of the neck of the guitar with distortion for about 8 seconds, then:

INTRO/VERSES
-----------------------------------|
-----------------------------------|
-----------------------------------|
-----------------------------------|
-----------------------------------|
0--0-0-5b7-0-0-5b7----0-0-0-0-0-5b7|

CHORUS

C5 A5 E5 D5
-------------------------------|------0-0--0-0-----------------|
-------------------------------|------0-0--0-0-----------------|
-5---5-5--5-5---5-2-2-2-2-2-2-2|----------------0-7-7-7-7-7-7-7|
-5---5-5--5-5---5-2-2-2-2-2-2-2|-2--2-2-2--2-2--0-7-7-7-7-7-7-7|
-3---3-3--3-3---3-0-0-0-0-0-0-0|-2--2-2-2--2-2--0-5-5-5-5-5-5-5|
-------------------------------|-0--0-0-0--0-0-----------------|
PM_____________

C5 A5
-------------------------------|
-------------------------------|
-5---5-5--5-5---5-2-2-2-2-2-2-2|
-5---5-5--5-5---5-2-2-2-2-2-2-2|
-3---3-3--3-3---3-0-0-0-0-0-0-0|
-------------------------------|
PM_____________


BRIDGE
----------------------12-12-12|----------------------14-14-14|
----------------------12-12-12|----------------------14-14-14|
----11-11--12-12-12---12-12-12|----11-11--12-12-12---14-14-14|
----10-10--11-11-11-----------|----10-10--11-11-11-----------|
----9--9---10-10-10-----------|----9--9---10-10-10-----------|
-0----------------------------|-0----------------------------|

-------------------------14-14|------------------------------|
----------------------14-14-14|------------------------------|
----11-11--12-12-12---14-14-14|----11-11--12-12-12-----------|
----10-10--11-11-11-----------|----10-10--11-11-11-----------|
----9--9---10-10-10-----------|----9--9---10-10-10---14\-----|
-0----------------------------|-0----------------------------|

SOLO

------------------------------------|-----------------------------------|
-3--------3-------3-----------------|--3-------3-------3---3-3-3-3-5-5p0|
-2b4---r2-b4-r2p0-2pb4r2p0----------|--2pb4-r2-b4-r2p0-2b4--------------|
--------------------------2p0-------|-----------------------------------|
------------------------------2p0---|-----------------------------------|
----------------------------------3-|-----------------------------------|

------------------------------------|-----------------------------------|
-5p3p0-5p3p0------------------------|-----------------------------------|
------------4p0-2-2-2gb4------------|-0-2-0-0-2b4r2p0--------2-0-2-/----|
--------------------------------2-2-|-----PM=---------2-0-0-2-----------|
------------------------------------|-----------------------------------|
------------------------------------|-----------------------------------|

------------------------------------|
--------------8---8--10b-10b--------|
-7--7-7-9-7-9---9-------------------|
------------------------------------|
------------------------------------|
------------------------------------|

-----------------------------------------------------------|
15b17-15-15b17r15p12---------------------------------------|
---------------------12-14-14b16-14-14-12------------------|
------------------------------------------14-12-12-14-14-12|
-----------------------------------------------------------|
-----------------------------------------------------------|

---------------------------------------|------------------------|
---------------------------------------|------------------------|
---------------------------------------|------------------------|
-14---14-12-12-12-11-11-11-9-9-9-7-7-5-|-7b9--gr----------------|
---------------------------------------|------------------------|
---------------------------------------|-----------------12\----|

FINAL CHORUS

C5 A5 E5 D5
-------------------------------|------0-0--0-0-----------------|
-------------------------------|------0-0--0-0-----------------|
-5---5-5--5-5---5-2-2-2-2-2-2-2|----------------0-7-7-7-7-7-7-7|
-5---5-5--5-5---5-2-2-2-2-2-2-2|-2--2-2-2--2-2--0-7-7-7-7-7-7-7|
-3---3-3--3-3---3-0-0-0-0-0-0-0|-2--2-2-2--2-2--0-5-5-5-5-5-5-5|
-------------------------------|-0--0-0-0--0-0-----------------|
PM_____________

ENDING

C5 A5
-------------------------------|
-------------------------------|
-5---5-5--5-5---5-2-2-2-2-2-2-2|
-5---5-5--5-5---5-2-2-2-2-2-2-2|
-3---3-3--3-3---3-0-0-0-0-0-0-0|
-------------------------------|
PM_____________

 

Love Buzz

Tuning:Standard (tuned UP ?step)

NOTE:Before guitar really enters on the album, there's a quiet noise made by tapping guitar neck.

INTRO

RIFF 1 RIFF 2 RIFF 3 RIFF 4
4 times 4 times 4 times 3 times

A5
---------||---0-0-5p3p0----------||----------------||---0-0-5p3p0-----------|-------------||
---------||------------5p3p0-----||----------------||------------5p3p0------|-------------||
-2-------||-2---------------5p2p0||----------6h7p6-||-2---------------5p2p0-|-2-----------||
-2-------||-2--------------------||-7--5-7-8-------||-2---------------------|-2-----------||
-0-------||-0--------------------||----------------||-0---------------------|-0-----------||
---------||----------------------||----------------||-----------------------|-------/19b20||

CHORUS
3 times
A5 G5 A5
--------------------||--------------------|
--------------------||--------------------|
-2-----------0--0---||-2------------------|
-2-----------0--0---||-2------------------|
-0------------------||-0------------------|
-------------3--3---||--------------------|

after 1st chorus play RIFF 2 and RIFF 3 and then go to SOLO.

SOLO
--0---------------------|--------------------------|
--8--8--7--7--------5-7-|-7b8==8r7--7--7---5--5----|
------------------------|-----------------------7--|
------------------------|--------------------------|
------------------------|--------------------------|
------------------------|--------------------------|

-------------------------|---------------------------|
-------------------------|---------------------------|
7--5---7b9-7b9--7b9------|-7b9r7p5p0------5-7-7b9r7--|
-------------------------|------------7-5p0----------|
-------------------------|---------------------------|
-------------------------|---------------------------|

---------------|-----------------|
---------------|-----------------|
7p5p0--2-2-----|-----------------|
----------2-2-0|--2-2-2-2-2-0----|
---------------|-------------0---|
---------------|-----------------|

---------------|---------------|
---------------|---------------|
-----------2-4-|4b5==5==5r4-2--|
---0-2-2-4-----|---------------|
0-2------------|---------------|
---------------|---------------|

after solo play RIFF 4 and then play 2nd verse and chorus.

After 2nd chorus play RIFF 4 and turn down volume and after few bars of guitar silence start to
make noise. I don't think it's necessary to tab it, because it's just feedback and string bending
(on Bleach other guitar with wah); Kurt never did it twice similarly.

So when the noise section is over, play RIFF 2 and RIFF 3 2 times and then RIFF 1 and:
e-----------------|----------------|---|
b-----------------|----------------|---|
g-2-2-2-2-2-2-2-2-|2-2-2-2-2-2-2-2-|-2-|
d-2-2-2-2-2-2-2-2-|2-2-2-2-2-2-2-2-|-2-|
a-0-0-0-0-0-0-0-0-|0-0-0-0-0-0-0-0-|-0-|
e-----------------|----------------|---|
PM________________|

 

Paper Cuts

Tuning:Standard (?step down)

INTRO
---------------I-----------------I---------------I-----------------I
---------------I-----------------I---------------I-----------------I
---------------I-----------------I---------------I-----------------I
---------------I--------X--------I---------------I--------X--------I
3-3-3-3-3-3--3-I-3-3-3--X-pick---I3-3-3-3-3-3--3-I-3-3-3--X-pick---I
1-1-1-1-1-1--1-I-1-1-1--Xscrapes-I1-1-1-1-1-1--1-I-1-1-1--Xscrapes-I
PM____________________ PM_____________________

---------------I-------0--------I---------------I-----------0--0---I
---------------I-------0--------I---------------I---------0--0-----I
---------------I-------0--------I---------------I-------3----------I
---------------I-------0--------I---------------I------------------I
3-3-3-3-3-3--3-I-3-3-3-0--------I3-3-3-3-3-3--3-I-3-3-3------------I
1-1-1-1-1-1--1-I-1-1-1-0--------I1-1-1-1-1-1--1-I-1-1-1------------I
PM____________________ PM_____________________

VERSE

---------------I-----------0--0---I
---------------I---------0--0-----I
---------------I-------3----------I X 15
---------------I------------------I
3-3-3-3-3-3--3-I-3-3-3------------I
1-1-1-1-1-1--1-I-1-1-1------------I
PM_____________________let ring

---------------I------------------I
---------------I------------------I
---------------I------------------I
---------------I------------------I
3-3-3-3-3-3--3-I-3-3-3------------I
1-1-1-1-1-1--1-I-1-1-1------------I
PM_____________________

PRE-CHORUS
------0-----0-I-----0-----0-I
----0-----0---I---0-----0---I
--3------3----I-3-----3-----I
--------------I-------------I
--------------I-------------I
0-------------I-------------I
let ring

CHORUS
----------------I-------------------I
----------------I-------------------I
----------------I-------------------I
3-4-4-5-5-6-6-7-I-9\8-8-8-8---8-8-8-I x 4
3-4-4-5-5-6-6-7-I-9\8-8-8-8---8-8-8-I
1-2-2-3-3-4-4-5-I-7\6-6-6-6---6-6-6-I

-----------------I-------------------I (w/random open e and b strings)
-----------------I-------------------I
-----------------I-------------------I?x 2 (On 2nd chorus 3x)
6\5-5-5-5--5-5-5-I-9\8-8-8-8---8-8-8-I
6\5-5-5-5--5-5-5-I-9\8-8-8-8---8-8-8-I
4\3-3-3-3--3-3-3-I-7\6-6-6-6---6-6-6-I

1st POST-CHORUS
-----------------I---------------I----------I-----5---5----5-I-----------I
-----------------I---------------I----------I-----5---5----5-I-----------I
-----------------I---------------I----------I----------------I-----------I
6\5-5-5-5--5-5-5-I4-4-4-4-4-4--4-I----------I-4-4-4-4-4-4--4-I-----------I
6\5-5-5-5--5-5-5-I4-4-4-4-4-4--4-I----------I-4-4-4-4-4-4--4-I---------4-I
4\3-3-3-3--3-3-3-I2-2-2-2-2-2--2-I----------I-2-2-2-2-2-2--2-I---------2-I
PM_________ PM__ PM PM

2nd POST-CHORUS
-----------------I-------------5-I----------I-----5---5----5-I-----------I
-----------------I-------------5-I----------I-----5---5----5-I-----------I
-----------------I---------------I----------I----------------I-----------I
6\5-5-5-5--5-5-5-I4-4-4-4-4-4--4-I----------I-4-4-4-4-4-4--4-I-----------I
6\5-5-5-5--5-5-5-I4-4-4-4-4-4--4-I----------I-4-4-4-4-4-4--4-I-----------I
4\3-3-3-3--3-3-3-I2-2-2-2-2-2--2-I----------I-2-2-2-2-2-2--2-I-----------I
PM__ PM PM PM__ PM

 

Negative Creep

DROP-D TUNING!!!

INTRO/VERSES

(D5)
--------------------I
--------------------I
--------------------I
--------------------I
--------------------I
0-0-/12-0-0-0-0-12\-I
PM__ PM_____

On verses, there are bends on low E string at the end of every fourth time the riff is played.
First one is at the frets 9-12
Second one is at the frets 16-19
Third one is at the frets 2-4
last time there is no bend, just open strings are strummed

CHORUS

G5 F#5 (no chord)
----------------------I
----------------------I
----------------------I
5--4------------------I
5--4---0-0-3-6--6-3-0-I
5--4------------------I

II-------------------------II
II-------------------------II
II-------------------------II
II-------------------------II 5 times, on final chorus 7 times
II5-5-3-----0-0-3-6--6-3-0-II
II-----4--4----------------II

 

Scoff

Tuning:Standard

INTRO/INTERLUDES BEGINNING

F#5 F5E5 F#5 F5
---------------I
---------------I
---------------I 4 times
-4-4-3---4-4-3-I
-4-4-3---4-4-3-I
-2-2-1-0-2-2-1-I
PM____________

INTRO/VERSES/INTERLUDES

F#5 F5E5 F#5 F5 F#5 F5E5 F#5 F5 F#5 F5E5 F#5 F5 F#5 F5E5 F#5 F5
-0-------------I---------------I---------------I---------------I
-0-------------I---------------I---------------I---------------I
-0-------------I---------------I---------------I---------------I
-4-4-3---4-4-3-I-4-4-3---4-4-3-I-4-4-3---4-4-3-I-4-4-3---4-4-3-I
-4-4-3---4-4-3-I-4-4-3---4-4-3-I-4-4-3---4-4-3-I-4-4-3---4-4-3-I
-2-2-1-0-2-2-1-I-2-2-1-0-2-2-1-I-2-2-1-0-2-2-1-I-2-2-1-0-2-2-1-I

PM___________mute only 3 bottom strings (E,A,D)
let ring

PRE-CHORUS

----------------I
----------------I
----------------I7 times
----------------I
----3-0-----3-0-I
2-2-----2-2-----I

F#5A5 A#5B5 C5
----------------I
----------------I
---2--3--4--5---I
---2--3--4--5---I
---0--1--2--3---I
-2--------------I
CHORUS

C5 D5
-----------------I----------------I
-----------------I----------------I
-5-5-5-5-5-5-5-5-I-7-7-7-7--------I
-5-5-5-5-5-5-5-5-I-7-7-7-7--------I8 times
-3-3-3-3-3-3-3-3-I-5-5-5-5--------I
-----------------I--------5-7-7-5-I

POST-CHORUS

E5 D#5D5E5 D#5
----------------I
-9-9-8-7-9-9-8--I
-9-9-8-7-9-9-8--I
-9-9-8-7-9-9-8--I 3 times
-7-7-6-5-7-7-6--I
----------------I

E5 D#5D5E5
----------------I
-9-9-8-7-5\-----I
-9-9-8-7-5\-----I
-9-9-8-7-5\-----I
-7-7-6-5-5\-----I
----------------I

SOLO
--------5--------I
--------5--------I
----5-4----------I4 times
-4--5-4----------I
-4---------------I
-----------------I

---------------I--------------------I
-7-6-7-6-7-6-7-I-/9-8-9-8-9-8-9/-11-I
-7-6-7-6-7-6-7-I-/9-8-9-8-9-8-9/-11-I twice
-7-6-7-6-7-6-7-I-/9-8-9-8-9-8-9/-11-I
---------------I--------------------I
---------------I--------------------I

 

Swap Meet

DROP-D TUNING!!

INTRO NOISE

----I
----I
-/9-I w/feedback
----I
----I
----I

!!!the first real note of the song (muted open low D) is NOT included in MAIN RIFF!!!
MAIN RIFF
N.C.
--II------------------------I
--II------------------------I
--II------------------------I
--II------------------------I
--II----3-----------2-------I
0-II-5-------0--/5-----5\-0-I
PM PM PM PM

CHORUS

G5 A#5 N.C.(D5)
---------------I------------------I----------------I-----------------I
---------------I------------------I----------------I-----------------I
---------------I------------------I----------------I-----------------I
5--5-5-5-5-5-8-I--8-8-8-8-8-8-8-0-I----------------I-----------------I twice
5--5-5-5-5-5-8-I--8-8-8-8-8-8-8-0-I----------------I-3---------------I
5--5-5-5-5-5-8-I--8-8-8-8-8-8-8-0-I-0--3-2-1-0-1-2-I---0-3-2-1-0-1-2-I

G5 A#5 F5 E5 D#5
---------------I------------------I----------------I-----------------I
---------------I------------------I----------------I-----------------I
---------------I------------------I----------------I-----------------I
5--5-5-5-5-5-8-I--8-8-8-8-8-8-8-0-I-3-3---2-2------I-1-1-1-1--1-1-1--I
5--5-5-5-5-5-8-I--8-8-8-8-8-8-8-0-I-3-3---2-2------I-1-1-1-1--1-1-1--I
5--5-5-5-5-5-8-I--8-8-8-8-8-8-8-0-I-3-3---2-2------I-1-1-1-1--1-1-1-0I
PM

SOLO
----------------I-------------------------I
----------------I-7p5p0-7p5p0-7p5p0-7p5p0-I
8-7-8-7-8-7-8-7-I-------------------------I
8-7-8-7-8-7-8-7-I-------------------------I
----------------I-------------------------I
----------------I-------------------------I

 

Mr. Moustache

Tuning:Standard

INTRO/MAIN RIFF

N.C (G)
----------------I----------------I
----------------I----------------I
----------------I----------------I
----------------I----------------I
--2-------------I--1-------------I
3---3-2-1-0-1-2-I3---3-2-1-0-1-2-I

VERSE
G N.C.
--------------I
--------------I
--------------I
5--5----------I
5--5----------I
3--3--1-0-1-2-I
PM______

PRE-CHORUS

B5 C5 G5 B5 C5 G5
-------------I-----------------I-------------I-----------------I
-------------I-----------------I-------------I-----------------I
4---5--5-5-5-I-----------------I4---5--5-5-5-I-----------------I
4---5--5-5-5-I-5-5-5-5-5-5-5-5-I4---5--5-5-5-I-5-5-5-5-5---(6)-I 2x
2---3--3-3-3-I-5-5-5-5-5-5-5-5-I2---3--3-3-3-I-5-5-5-5-5---(6)-I
-------------I-3-3-3-3-3-3-3-3-I-------------I-3-3-3-3-3---(4)-I

CHORUS Only on repeat
A5 C5 D#5
------------I------------I----------------I---------------I
------------I------------I----------------I---------------I
2-2-2-2-----I2-2-2-2-----I5-5-5-5---5-5-5-I8-8-8-8--8-8-8-I
2-2-2-2-----I2-2-2-2-----I5-5-5-5---5-5-5-I8-8-8-8--8-8-8-I
0-0-0-0-----I0-0-0-0-----I3-3-3-3---3-3-3-I6-6-6-6--6-6-6-I
------------I------------I----------------I---------------I

A5 C5 D#5
-------------I-------------I----------------I---------------I
-------------I-------------I----------------I---------------I
2-2-2-2------I2-2-2-2------I5-5-5-5---5-5-5-I8-8-8-8--8-8-8-I
2-2-2-2------I2-2-2-2------I5-5-5-5---5-5-5-I8-8-8-8--8-8-8-I
0-0-0-0------I0-0-0-0------I3-3-3-3---3-3-3-I6-6-6-6--6-6-6-I
--------4-3-2I--------4-3-2I----------------I---------------I

 

Sifting

intro
e----------------------------------------------------------------------------|
b----------------------------------------------------------------------------|
g----------------------------------------------------------------------------|
d----------------------------------------------------------------------------|
a----------------------------------------------------------------------------|
e--0--0--0--0----0--0--0--0----0--0--0--0----0--0--0--0----------------------|
PM-------- PM-------- PM-------- PM------------------------------|

e----------------------------------------------------------------------------|
b----------------------------------------------------------------------------|
g----------------------------------------------------------------------------|
d-------------3--------------2--1--0-----------------3-----------------------|
a-------------3--------------2--1--0-----------------3-----------------------|
e--0--0--0--------0--0--0------------------0--0--0---------0--0--0--0--------|
PM----- PM----- PM----- PM----------------|

e----------------------------------------------------------------------------|
b----------------------------------------------------------------------------|
g----------------------------------------------------------------------------|
d-------------3--------------2--1--0-----------------3-----------------------|
a-------------3--------------2--1--0-----------------3-----------------------|
e--0--0--0--------0--0--0------------------0--0--0---------0--0--0--0--------|
PM----- PM----- PM----- PM----------------|

verse
e----------------------------------------------------------------------------|
b----------------------------------------------------------------------------|
g----------------------------------------------------------------------------|
d-----------3------------2--1--0-------------3------------2--1--0------------|
a-----------3------------2--1--0-------------3------------2--1--0------------|
e--0--0--0-----0--0--0--------------0--0--0-----0--0--0----------------------|
PM----- PM----- PM----- PM---------------------------|

then
e----------------------------------------------------------------------------|
b----------------------------------------------------------------------------|
g----------------------------------------------------------------------------|
d-------------5~~~~~\-------------5~~~~~\------------------------------------|
a-------------5~~~~~\-------------5~~~~~\------------------------------------|
e--0--0--0-------------0--0--0-----------------------------------------------|
PM----- PM----------------------------------------------------|

play that 4 times, then
chorus
e---------------------------------------------------------------------------|
b---------------------------------------------------------------------------|
g--5--5-5--5-----------------------5--5-5--5--------------------------------|
d--5--5-5--5-0---)--)-----------0--5--5-5--5-0---)--)-----------0-----------|
a--3--3-3--3-0--7--7--7\5--5--5-0--3--3-3--3-0--7--7--7\5--5--5-0-----------|
e---------------5--5--5\3--3--3-----------------5--5--5\3--3--3-------------|

play that 3 times, then
e---------------------------------------------------------------------------|
b---------------------------------------------------------------------------|
g--5--5-5--5-----------------------5--5-5--5----4---------------------------|
d--5--5-5--5-0---)--)-----------0--5--5-5--5-0--4---------------------------|
a--3--3-3--3-0--7--7--7\5--5--5-0--3--3-3--3-0--2---------------------------|
e---------------5--5--5\3--3--3---------------------------------------------|

solo
e----------------------------------------------------------------------------|
b--------------)~~~----------------------------------------------------------|
g-------------11-------------------------------------------------------------|
d-----------------------------------)-12-(----------------------)~~~---------|
a---------------------------------12------12------------------12-------------|
e--0--0--0-------------0--0--0-------------------0--0--0---------------------|

e----------------------------------------------------------------------------|
b----------------------------------------------------------------------------|
g----------------------------------------------------------------------------|
d--------------)-12-(----------------)~~~--------------)-12-(----------------|
a------------12------12------------12----------------12------12--------------|
e--0--0--0---------------0--0--0-----------0--0--0---------------------------|

e---------------------------------------------------------------------------|
b---------------------------------------------------------------------------|
g---------------------------------------------------------------------------|
d--------------)-12-(-------------------)-12-(------------------------------|
a------------12------12---------------12------12----------------------------|
e--0--0--0------------------0--0--0------------------0--0--0----------------|

e----------------------------------------------------------------------------|
b----)-----------------------------------------------------------------------|
g--11---11-------------------------------------------------------------------|
d---------------12----------)--------12----)------------12---------)--12-----|
a-----------12-----(12)---12---(12)------12---(12)---12----(12)--12------12\-|
e----------------------------------------------------------------------------|

e---------------------------------------------------------------------------|
b----)---------------------------------------------------0---2--x-----------|
g--11---(11)--(11)\--0--2--3--4--5--6--7--9--9--9--7--0----2--------------0-|
d----------------------------------------------------------------2--2\0-----|
a---------------------------------------------------------------------------|
e---------------------------------------------------------------------------|

e---------------------------------------------------------------------------|
b--5--5--5---5--(5)\4--4\2--0------)--------------)---0--0------------------|
g--5--5--5---5--(5)\4--4-------1--2---(2)--2--2--2/3--0---------------------|
d---------------------------------------------------------------------------|
a---------------------------------------------------------------------------|
e---------------------------------------------------------------------------|

e--------)-----------------------------------)------------------------------|
b--12--14--14--12--0--------------------)--17-------0------------------)----|
g---------------------12--12--14--12--14---17---14--0--7--7--9--9----(9)----|
d------------------------------------------------------------------0--------|
a---------------------------------------------------------------------------|
e---------------------------------------------------------------------------|

e---------------------------------------------------------------------------|
b-------------)------------0------------------------------------------------|
g-----0--5--14--14--12--9--0--7--9--10--10--10\7--2-------------------------|
d--x-----5-----------------------------------------------)------------------|
a------------------------------------------------------12----(12)-----------|
e---------------------------------------------------------------------------|

e---------------------------------------------------------------------------|
b---------------------------------------------------------------------------|
g---------------------------------------------------------------------------|
d----)----------------)-------------12----------------------12--------------|
a--12---12--(12)----12---(12)---12------(12)--12--(12)--12------(12)--------|
e---------------------------------------------------------------------------|

e---------------------------------------------------------------------------|
b------------------------------------------------0--------------------------|
g------------------------------------------------0--------------------------|
d----)--12------------------)--------------------0--------------------------|
a--12-------(12)----------12------------------------------------------------|
e---------------------------------------------------------------------------|

 

Big Cheese

Tuning:Standard

INTRO (w/high volume distortion, and guitar volume turned down.
Don't pick, but finger the chords, turn up gtr volume halfway let the chords sustain and then
release finger pressure and turn down gtr volume.
Raise gtr volume to full just before the band enters.)

C5 B5
--------I
--------I
--------I
10-h\9--I
10-h\9--I
8--h\7--I

vol. swells

INTRO/VERSES
C5 B5
--------------I
--------------I
--------------I
10--9-X-X-X-0-I
10--9-X-X-X-0-I
8---7-X-X-X-0-I
*These muffles should be played over 7th fret so some natural harmonics ring

LAST REPEAT OF VERSE
C5 B5
-------------I
-------------I
-------------I
10--9--9-9-0-I
10--9--9-9-0-I
8---7--7-7-0-I

CHORUS
F#5 G5
--------------I--------------I
--------------I--------------I
--------------I--------------I
4--4--4-4-4-4-I--4-4-4-5--5--I
4--4--4-4-4-4-I--4-4-4-5--5--I
2--2--2-2-2-2-I--2-2-2-3--3--I

INTERLUDE RIFF 1
N.C.
-----------------II
-----------------II
-----------------II
----5------------II 4 times
------6--5--3--0-II
7----------------II

INTERLUDE RIFF 2
N.C.
-----------------------I-----------------------I
-----------------------I-----------------------I
-16-16-16-17--17-17-14-I-16\14-14-16--14-14\11-I
-----------------------I-----------------------I
-14-14-14-15--15-15-12-I-14\12-12-14--12-12\9--I
-----------------------I-----------------------I
*lay your index finger on the D string while fretting the A string, so the D string gets muffled

LAST REPEAT OF INTERLUDE RIFF 2
-----------------------I-----------------------I
-----------------------I-----------------------I
-16-16-16-17--17-17-16-I-17\16-17-16-17-16-16--I
-----------------------I-----------------------I
-14-14-14-15--15-15-14-I-15\14-15-14-15-14-14--I
-----------------------I-----------------------I

OUTRO
B5
----------------I
----------------I
----------------I
9-9-9-9-9-9-9-9-I
9-9-9-9-9-9-9-9-I
7-7-7-7-7-7-7-7-I
PM___ PM___

ENDING
B5 A#5 A5 G#5 N.C.
---------------------I
---------------------I
---------------------I
9--h\8--h\7--h\6-----I
9--h\8--h\7--h\6-----I
7--h\6--h\5--h\4-h\0-I

 

Downer

Tuning:Standard ?step down

MAIN RIFF

E5 C5
--------------I
--------------I
--------5-5-5-I
2--2--2-5-5-5-I
2--2--2-3-3-3-I
0--0--0-------I

PRE-CHORUS

A5A#5B5A#5
----------I
----------I
----------I
7--8-9--8-I
7--8-9--8-I
5--6-7--6-I

CHORUS

A5 A#5 E5 F5
----------I----------I---------I------------------------I
----------I----------I---------I------------------------I
----------I----------I9--------I10-10-10-10-10-10-10-10-I
7--------8I--------8-I9--------I10-10-10-10-10-10-10-10-I
7--------8I--------8-I7--------I8--8--8--8--8--8--8--8--I
5--------6I--------6-I---------I------------------------I

OUTRO

E5 C5
----------------I
----------------I
----------5-5-5-I
2-2-2-2-2-5-5-5-I
2-2-2-2-2-3-3-3-I
0-0-0-0-0-------I
PM_______

 

Everything tabbed by Echo Flanger ( Этот e-mail адрес защищен от спам-ботов, для его просмотра у Вас должен быть включен Javascript )

 

Оставлять комментарии могут только зарегистрированные пользователи.

Тусовка на Kurt Cobain [ru]

Форум* | Гостевуха

* Людям с тонкой душевной организацией, легко ранимым, воспринимающим все на свой счет, с отсутствием чувства юмора и самоиронии - НЕ РЕКОМЕНДУЕТСЯ!

Качаем c FTP!

Качаем альбомы, бутлеги и видео Nirvana с FTP сервера. Для подключения используйте бесплатный FTP-клиент FileZilla.

Данные для доступа:
Сервер: ftp://nirvanaall.ru
Логин: kurt
Пароль: 4ever
Пароль на архив: nirvanaall.ru

Рассылка новостей

На страницу рассылки

Подписаться

Работа над ошибками

Если вы обнаружили на сайте ошибку или недостоверную информацию, то выделите ошибочное слово или фразу и нажмите Ctrl+Enter. Спасибо за участие!

О сайте Kurt Cobain [ru]

Концепция | Контакты | Баннеры

Объявления

Для ссылок.
Яндекс цитирования хостинг от .masterhost
Rambler's Top100